  0
SECTION
  2
HEADER
  9
$ACADVER
  1
AC1015
  9
$ACADMAINTVER
 70
     6
  9
$DWGCODEPAGE
  3
ANSI_1254
  9
$INSBASE
 10
0.0
 20
0.0
 30
0.0
  9
$EXTMIN
 10
0.0
 20
0.0
 30
0.0
  9
$EXTMAX
 10
279.4
 20
215.9
 30
0.0
  9
$LIMMIN
 10
0.0
 20
0.0
  9
$LIMMAX
 10
279.4
 20
215.9
  9
$ORTHOMODE
 70
     0
  9
$REGENMODE
 70
     1
  9
$FILLMODE
 70
     1
  9
$QTEXTMODE
 70
     0
  9
$MIRRTEXT
 70
     1
  9
$LTSCALE
 40
1.0
  9
$ATTMODE
 70
     1
  9
$TEXTSIZE
 40
3.5
  9
$TRACEWID
 40
1.0
  9
$TEXTSTYLE
  7
Standard
  9
$CLAYER
  8
0
  9
$CELTYPE
  6
ByLayer
  9
$CECOLOR
 62
   256
  9
$CELTSCALE
 40
1.0
  9
$DISPSILH
 70
     0
  9
$DIMSCALE
 40
1.0
  9
$DIMASZ
 40
3.5
  9
$DIMEXO
 40
1.0
  9
$DIMDLI
 40
3.75
  9
$DIMRND
 40
0.0
  9
$DIMDLE
 40
0.0
  9
$DIMEXE
 40
1.0
  9
$DIMTP
 40
0.0
  9
$DIMTM
 40
0.0
  9
$DIMTXT
 40
3.5
  9
$DIMCEN
 40
2.5
  9
$DIMTSZ
 40
0.0
  9
$DIMTOL
 70
     0
  9
$DIMLIM
 70
     0
  9
$DIMTIH
 70
     1
  9
$DIMTOH
 70
     1
  9
$DIMSE1
 70
     0
  9
$DIMSE2
 70
     0
  9
$DIMTAD
 70
     1
  9
$DIMZIN
 70
     0
  9
$DIMBLK
  1

  9
$DIMASO
 70
     1
  9
$DIMSHO
 70
     1
  9
$DIMPOST
  1

  9
$DIMAPOST
  1

  9
$DIMALT
 70
     0
  9
$DIMALTD
 70
     3
  9
$DIMALTF
 40
0.0393700787
  9
$DIMLFAC
 40
1.0
  9
$DIMTOFL
 70
     1
  9
$DIMTVP
 40
0.0
  9
$DIMTIX
 70
     0
  9
$DIMSOXD
 70
     0
  9
$DIMSAH
 70
     0
  9
$DIMBLK1
  1

  9
$DIMBLK2
  1

  9
$DIMSTYLE
  2
ISO-25
  9
$DIMCLRD
 70
     0
  9
$DIMCLRE
 70
     0
  9
$DIMCLRT
 70
     0
  9
$DIMTFAC
 40
1.0
  9
$DIMGAP
 40
1.524
  9
$DIMJUST
 70
     0
  9
$DIMSD1
 70
     0
  9
$DIMSD2
 70
     0
  9
$DIMTOLJ
 70
     0
  9
$DIMTZIN
 70
     0
  9
$DIMALTZ
 70
     0
  9
$DIMALTTZ
 70
     0
  9
$DIMUPT
 70
     0
  9
$DIMDEC
 70
     2
  9
$DIMTDEC
 70
     2
  9
$DIMALTU
 70
     2
  9
$DIMALTTD
 70
     3
  9
$DIMTXSTY
  7
Standard
  9
$DIMAUNIT
 70
     0
  9
$DIMADEC
 70
     2
  9
$DIMALTRND
 40
0.0
  9
$DIMAZIN
 70
     0
  9
$DIMDSEP
 70
    44
  9
$DIMATFIT
 70
     3
  9
$DIMFRAC
 70
     0
  9
$DIMLDRBLK
  1

  9
$DIMLUNIT
 70
     2
  9
$DIMLWD
 70
    -2
  9
$DIMLWE
 70
    -2
  9
$DIMTMOVE
 70
     0
  9
$LUNITS
 70
     2
  9
$LUPREC
 70
     2
  9
$SKETCHINC
 40
1.0
  9
$FILLETRAD
 40
10.0
  9
$AUNITS
 70
     0
  9
$AUPREC
 70
     2
  9
$MENU
  1
.
  9
$ELEVATION
 40
0.0
  9
$PELEVATION
 40
0.0
  9
$THICKNESS
 40
0.0
  9
$LIMCHECK
 70
     0
  9
$CHAMFERA
 40
0.0
  9
$CHAMFERB
 40
0.0
  9
$CHAMFERC
 40
0.0
  9
$CHAMFERD
 40
0.0
  9
$SKPOLY
 70
     0
  9
$TDCREATE
 40
2458985.632838021
  9
$TDUCREATE
 40
2458985.507838021
  9
$TDUPDATE
 40
2458985.632838299
  9
$TDUUPDATE
 40
2458985.507838299
  9
$TDINDWG
 40
0.0000000116
  9
$TDUSRTIMER
 40
0.0000000116
  9
$USRTIMER
 70
     1
  9
$ANGBASE
 50
0.0
  9
$ANGDIR
 70
     0
  9
$PDMODE
 70
     0
  9
$PDSIZE
 40
-1.0
  9
$PLINEWID
 40
0.0
  9
$SPLFRAME
 70
     0
  9
$SPLINETYPE
 70
     6
  9
$SPLINESEGS
 70
     8
  9
$HANDSEED
  5
CC
  9
$SURFTAB1
 70
     6
  9
$SURFTAB2
 70
     6
  9
$SURFTYPE
 70
     6
  9
$SURFU
 70
     6
  9
$SURFV
 70
     6
  9
$UCSBASE
  2

  9
$UCSNAME
  2

  9
$UCSORG
 10
0.0
 20
0.0
 30
0.0
  9
$UCSXDIR
 10
1.0
 20
0.0
 30
0.0
  9
$UCSYDIR
 10
0.0
 20
1.0
 30
0.0
  9
$UCSORTHOREF
  2

  9
$UCSORTHOVIEW
 70
     0
  9
$UCSORGTOP
 10
0.0
 20
0.0
 30
0.0
  9
$UCSORGBOTTOM
 10
0.0
 20
0.0
 30
0.0
  9
$UCSORGLEFT
 10
0.0
 20
0.0
 30
0.0
  9
$UCSORGRIGHT
 10
0.0
 20
0.0
 30
0.0
  9
$UCSORGFRONT
 10
0.0
 20
0.0
 30
0.0
  9
$UCSORGBACK
 10
0.0
 20
0.0
 30
0.0
  9
$PUCSBASE
  2

  9
$PUCSNAME
  2

  9
$PUCSORG
 10
0.0
 20
0.0
 30
0.0
  9
$PUCSXDIR
 10
1.0
 20
0.0
 30
0.0
  9
$PUCSYDIR
 10
0.0
 20
1.0
 30
0.0
  9
$PUCSORTHOREF
  2

  9
$PUCSORTHOVIEW
 70
     0
  9
$PUCSORGTOP
 10
0.0
 20
0.0
 30
0.0
  9
$PUCSORGBOTTOM
 10
0.0
 20
0.0
 30
0.0
  9
$PUCSORGLEFT
 10
0.0
 20
0.0
 30
0.0
  9
$PUCSORGRIGHT
 10
0.0
 20
0.0
 30
0.0
  9
$PUCSORGFRONT
 10
0.0
 20
0.0
 30
0.0
  9
$PUCSORGBACK
 10
0.0
 20
0.0
 30
0.0
  9
$USERI1
 70
     0
  9
$USERI2
 70
     0
  9
$USERI3
 70
     0
  9
$USERI4
 70
     0
  9
$USERI5
 70
     0
  9
$USERR1
 40
0.0
  9
$USERR2
 40
0.0
  9
$USERR3
 40
0.0
  9
$USERR4
 40
0.0
  9
$USERR5
 40
0.0
  9
$WORLDVIEW
 70
     1
  9
$SHADEDGE
 70
     3
  9
$SHADEDIF
 70
    70
  9
$TILEMODE
 70
     1
  9
$MAXACTVP
 70
    64
  9
$PINSBASE
 10
0.0
 20
0.0
 30
0.0
  9
$PLIMCHECK
 70
     0
  9
$PEXTMIN
 10
1.0000000000E+20
 20
1.0000000000E+20
 30
1.0000000000E+20
  9
$PEXTMAX
 10
-1.0000000000E+20
 20
-1.0000000000E+20
 30
-1.0000000000E+20
  9
$PLIMMIN
 10
0.0
 20
0.0
  9
$PLIMMAX
 10
420.0
 20
297.0
  9
$UNITMODE
 70
     0
  9
$VISRETAIN
 70
     1
  9
$PLINEGEN
 70
     0
  9
$PSLTSCALE
 70
     1
  9
$TREEDEPTH
 70
  3020
  9
$CMLSTYLE
  2
Standard
  9
$CMLJUST
 70
     0
  9
$CMLSCALE
 40
20.0
  9
$PROXYGRAPHICS
 70
     1
  9
$MEASUREMENT
 70
     1
  9
$CELWEIGHT
370
    -1
  9
$ENDCAPS
280
     0
  9
$JOINSTYLE
280
     0
  9
$LWDISPLAY
290
     1
  9
$INSUNITS
 70
     4
  9
$HYPERLINKBASE
  1

  9
$STYLESHEET
  1

  9
$XEDIT
290
     1
  9
$CEPSNTYPE
380
     0
  9
$PSTYLEMODE
290
     1
  9
$FINGERPRINTGUID
  2
{d6906d56-dd94-4a33-90dd-14dc7062ccbd}
  9
$VERSIONGUID
  2
{FAEB1C32-E019-11D5-929B-00C0DF256EC4}
  9
$EXTNAMES
290
     1
  9
$PSVPSCALE
 40
0.0
  9
$OLESTARTUP
290
     0
  0
ENDSEC
  0
SECTION
  2
CLASSES
  0
CLASS
  1
ACDBDICTIONARYWDFLT
  2
AcDbDictionaryWithDefault
  3
ObjectDBX Classes
 90
        0
280
     0
281
     0
  0
CLASS
  1
VISUALSTYLE
  2
AcDbVisualStyle
  3
ObjectDBX Classes
 90
     4095
280
     0
281
     0
  0
CLASS
  1
MATERIAL
  2
AcDbMaterial
  3
ObjectDBX Classes
 90
     1153
280
     0
281
     0
  0
CLASS
  1
SCALE
  2
AcDbScale
  3
ObjectDBX Classes
 90
     1153
280
     0
281
     0
  0
CLASS
  1
TABLESTYLE
  2
AcDbTableStyle
  3
ObjectDBX Classes
 90
     4095
280
     0
281
     0
  0
CLASS
  1
MLEADERSTYLE
  2
AcDbMLeaderStyle
  3
ACDB_MLEADERSTYLE_CLASS
 90
     4095
280
     0
281
     0
  0
CLASS
  1
SUN
  2
AcDbSun
  3
SCENEOE
 90
     1153
280
     0
281
     0
  0
CLASS
  1
ACDBPLACEHOLDER
  2
AcDbPlaceHolder
  3
ObjectDBX Classes
 90
        0
280
     0
281
     0
  0
CLASS
  1
LAYOUT
  2
AcDbLayout
  3
ObjectDBX Classes
 90
        0
280
     0
281
     0
  0
ENDSEC
  0
SECTION
  2
TABLES
  0
TABLE
  2
VPORT
  5
8
330
0
100
AcDbSymbolTable
 70
     1
  0
VPORT
  5
29
330
8
100
AcDbSymbolTableRecord
100
AcDbViewportTableRecord
  2
*Active
 70
     0
 10
0.0
 20
0.0
 11
1.0
 21
1.0
 12
139.7
 22
107.95
 13
0.0
 23
0.0
 14
10.0
 24
10.0
 15
10.0
 25
10.0
 16
0.0
 26
0.0
 36
1.0
 17
0.0
 27
0.0
 37
0.0
 40
215.9
 41
1.2941176471
 42
50.0
 43
0.0
 44
0.0
 50
0.0
 51
0.0
 71
     0
 72
  2000
 73
     1
 74
     3
 75
     0
 76
     0
 77
     0
 78
     0
281
     0
 65
     1
110
0.0
120
0.0
130
0.0
111
1.0
121
0.0
131
0.0
112
0.0
122
1.0
132
0.0
 79
     0
146
0.0
  0
ENDTAB
  0
TABLE
  2
LTYPE
  5
5
330
0
100
AcDbSymbolTable
 70
     6
  0
LTYPE
  5
14
330
5
100
AcDbSymbolTableRecord
100
AcDbLinetypeTableRecord
  2
ByBlock
 70
     0
  3

 72
    65
 73
     0
 40
0.0
  0
LTYPE
  5
15
330
5
100
AcDbSymbolTableRecord
100
AcDbLinetypeTableRecord
  2
ByLayer
 70
     0
  3

 72
    65
 73
     0
 40
0.0
  0
LTYPE
  5
16
330
5
100
AcDbSymbolTableRecord
100
AcDbLinetypeTableRecord
  2
Continuous
 70
     0
  3
Solid line
 72
    65
 73
     0
 40
0.0
  0
LTYPE
  5
6E
330
5
100
AcDbSymbolTableRecord
100
AcDbLinetypeTableRecord
  2
HIDDEN
 70
     0
  3
Hidden __ __ __ __ __ __ __ __ __ __ __ __ __ __
 72
    65
 73
     2
 40
1.905
 49
1.27
 74
     0
 49
-0.635
 74
     0
  0
LTYPE
  5
6F
330
5
100
AcDbSymbolTableRecord
100
AcDbLinetypeTableRecord
  2
PHANTOM
 70
     0
  3
Phantom ______  __  __  ______  __  __  ______
 72
    65
 73
     6
 40
12.7
 49
6.35
 74
     0
 49
-1.27
 74
     0
 49
1.27
 74
     0
 49
-1.27
 74
     0
 49
1.27
 74
     0
 49
-1.27
 74
     0
  0
LTYPE
  5
70
330
5
100
AcDbSymbolTableRecord
100
AcDbLinetypeTableRecord
  2
CENTER
 70
     0
  3
Center ____ _ ____ _ ____ _ ____ _ ____ _ ____
 72
    65
 73
     4
 40
10.16
 49
6.35
 74
     0
 49
-1.27
 74
     0
 49
1.27
 74
     0
 49
-1.27
 74
     0
  0
LTYPE
  5
71
330
5
100
AcDbSymbolTableRecord
100
AcDbLinetypeTableRecord
  2
CENTERX2
 70
     0
  3
Center (2x) ________  __  ________  __  _____
 72
    65
 73
     4
 40
20.32
 49
12.7
 74
     0
 49
-2.54
 74
     0
 49
2.54
 74
     0
 49
-2.54
 74
     0
  0
LTYPE
  5
72
330
5
100
AcDbSymbolTableRecord
100
AcDbLinetypeTableRecord
  2
DOT2
 70
     0
  3
Dot (.5x) ........................................
 72
    65
 73
     2
 40
0.635
 49
0.0
 74
     0
 49
-0.635
 74
     0
  0
ENDTAB
  0
TABLE
  2
LAYER
  5
2
330
0
100
AcDbSymbolTable
 70
    17
  0
LAYER
  5
10
330
2
100
AcDbSymbolTableRecord
100
AcDbLayerTableRecord
  2
0
 70
     0
 62
     7
  6
Continuous
370
    -3
390
F
  0
LAYER
  5
73
330
2
100
AcDbSymbolTableRecord
100
AcDbLayerTableRecord
  2
FORMAT
 70
     0
 62
     7
  6
Continuous
370
    -3
390
F
  0
LAYER
  5
74
330
2
100
AcDbSymbolTableRecord
100
AcDbLayerTableRecord
  2
YARDIMCI_GEOMETRI
 70
     0
 62
    -6
  6
Continuous
290
     0
370
    -3
390
F
  0
LAYER
  5
75
330
2
100
AcDbSymbolTableRecord
100
AcDbLayerTableRecord
  2
SAYFA_CERCEVESI
 70
     0
 62
     7
  6
Continuous
370
    25
390
F
  0
LAYER
  5
76
330
2
100
AcDbSymbolTableRecord
100
AcDbLayerTableRecord
  2
ANTET
 70
     0
 62
     7
  6
Continuous
370
    -3
390
F
  0
LAYER
  5
77
330
2
100
AcDbSymbolTableRecord
100
AcDbLayerTableRecord
  2
OLCU
 70
     0
 62
   150
  6
Continuous
370
    -3
390
F
  0
LAYER
  5
78
330
2
100
AcDbSymbolTableRecord
100
AcDbLayerTableRecord
  2
METIN
 70
     0
 62
    96
  6
Continuous
370
    -3
390
F
  0
LAYER
  5
79
330
2
100
AcDbSymbolTableRecord
100
AcDbLayerTableRecord
  2
BALON
 70
     0
 62
     5
  6
Continuous
370
    -3
390
F
  0
LAYER
  5
7A
330
2
100
AcDbSymbolTableRecord
100
AcDbLayerTableRecord
  2
VURGU
 70
     0
 62
     7
  6
Continuous
370
    -3
390
F
  0
LAYER
  5
7B
330
2
100
AcDbSymbolTableRecord
100
AcDbLayerTableRecord
  2
SILIK
 70
     0
 62
     7
  6
Continuous
370
    -3
390
F
  0
LAYER
  5
7C
330
2
100
AcDbSymbolTableRecord
100
AcDbLayerTableRecord
  2
MODEL
 70
     0
 62
     7
  6
Continuous
370
    -3
390
F
  0
LAYER
  5
7D
330
2
100
AcDbSymbolTableRecord
100
AcDbLayerTableRecord
  2
DETAYLANDıRMA
 70
     0
 62
   190
  6
Continuous
370
    -3
390
F
  0
LAYER
  5
7E
330
2
100
AcDbSymbolTableRecord
100
AcDbLayerTableRecord
  2
TOLERANS
 70
     0
 62
   230
  6
Continuous
370
    -3
390
F
  0
LAYER
  5
7F
330
2
100
AcDbSymbolTableRecord
100
AcDbLayerTableRecord
  2
MERKEZ_CIZGILERI
 70
     0
 62
    30
  6
Continuous
370
    -3
390
F
  0
LAYER
  5
80
330
2
100
AcDbSymbolTableRecord
100
AcDbLayerTableRecord
  2
KESIT-DETAY_CIZGILERI
 70
     0
 62
     7
  6
Continuous
370
    -3
390
F
  0
LAYER
  5
81
330
2
100
AcDbSymbolTableRecord
100
AcDbLayerTableRecord
  2
\U+041E\U+0421\U+0415\U+0412\U+042B\U+0415
 70
     0
 62
     7
  6
Continuous
370
    -3
390
F
  0
LAYER
  5
82
330
2
100
AcDbSymbolTableRecord
100
AcDbLayerTableRecord
  2
\U+0412\U+041E\U+0414\U+042F\U+041D\U+042B\U+0415_\U+0417\U+041D\U+0410\U+041A\U+0418
 70
     0
 62
    11
  6
Continuous
370
    -3
390
F
  0
ENDTAB
  0
TABLE
  2
STYLE
  5
3
330
0
100
AcDbSymbolTable
 70
     1
  0
STYLE
  5
11
330
3
100
AcDbSymbolTableRecord
100
AcDbTextStyleTableRecord
  2
Standard
 70
     0
 40
0.0
 41
1.0
 50
0.0
 71
     0
 42
3.5
  3
txt
  4

  0
ENDTAB
  0
TABLE
  2
VIEW
  5
6
330
0
100
AcDbSymbolTable
 70
     0
  0
ENDTAB
  0
TABLE
  2
UCS
  5
7
330
0
100
AcDbSymbolTable
 70
     0
  0
ENDTAB
  0
TABLE
  2
APPID
  5
9
330
0
100
AcDbSymbolTable
 70
     1
  0
APPID
  5
12
330
9
100
AcDbSymbolTableRecord
100
AcDbRegAppTableRecord
  2
ACAD
 70
     0
  0
ENDTAB
  0
TABLE
  2
DIMSTYLE
  5
A
330
0
100
AcDbSymbolTable
 70
     1
100
AcDbDimStyleTable
  0
DIMSTYLE
105
27
330
A
100
AcDbSymbolTableRecord
100
AcDbDimStyleTableRecord
  2
ISO-25
 70
     0
 41
2.5
 42
0.625
 43
3.75
 44
1.25
 73
     0
 74
     0
 77
     1
 78
     8
140
2.5
141
2.5
143
0.0393700787
147
0.625
171
     3
172
     1
178
     0
271
     2
272
     2
274
     3
278
    44
283
     0
284
     8
340
11
  0
ENDTAB
  0
TABLE
  2
BLOCK_RECORD
  5
1
330
0
100
AcDbSymbolTable
 70
     2
  0
BLOCK_RECORD
  5
1F
330
1
100
AcDbSymbolTableRecord
100
AcDbBlockTableRecord
  2
*Model_Space
340
22
  0
BLOCK_RECORD
  5
1B
330
1
100
AcDbSymbolTableRecord
100
AcDbBlockTableRecord
  2
*Paper_Space
340
1E
  0
BLOCK_RECORD
  5
23
330
1
100
AcDbSymbolTableRecord
100
AcDbBlockTableRecord
  2
*Paper_Space0
340
26
  0
BLOCK_RECORD
  5
87
330
1
100
AcDbSymbolTableRecord
100
AcDbBlockTableRecord
  2
SW_CENTERMARKSYMBOL_0
340
0
102
{BLKREFS
331
92
102
}
  0
ENDTAB
  0
ENDSEC
  0
SECTION
  2
BLOCKS
  0
BLOCK
  5
20
330
1F
100
AcDbEntity
  8
0
100
AcDbBlockBegin
  2
*Model_Space
 70
     0
 10
0.0
 20
0.0
 30
0.0
  3
*Model_Space
  1

  0
ENDBLK
  5
21
330
1F
100
AcDbEntity
  8
0
100
AcDbBlockEnd
  0
BLOCK
  5
1C
330
1B
100
AcDbEntity
 67
     1
  8
0
100
AcDbBlockBegin
  2
*Paper_Space
 70
     0
 10
0.0
 20
0.0
 30
0.0
  3
*Paper_Space
  1

  0
ENDBLK
  5
1D
330
1B
100
AcDbEntity
 67
     1
  8
0
100
AcDbBlockEnd
  0
BLOCK
  5
24
330
23
100
AcDbEntity
  8
0
100
AcDbBlockBegin
  2
*Paper_Space0
 70
     0
 10
0.0
 20
0.0
 30
0.0
  3
*Paper_Space0
  1

  0
ENDBLK
  5
25
330
23
100
AcDbEntity
  8
0
100
AcDbBlockEnd
  0
BLOCK
  5
88
330
87
100
AcDbEntity
  8
0
100
AcDbBlockBegin
  2
SW_CENTERMARKSYMBOL_0
 70
     0
 10
0.0
 20
0.0
 30
0.0
  3
SW_CENTERMARKSYMBOL_0
  1

  0
LINE
  5
8A
330
87
100
AcDbEntity
  8
FORMAT
 62
     0
100
AcDbLine
 10
0.0
 20
0.0
 30
0.0
 11
0.0
 21
2.5
 31
0.0
  0
LINE
  5
8B
330
87
100
AcDbEntity
  8
FORMAT
 62
     0
100
AcDbLine
 10
0.0
 20
0.0
 30
0.0
 11
-2.5
 21
0.0
 31
0.0
  0
LINE
  5
8C
330
87
100
AcDbEntity
  8
FORMAT
 62
     0
100
AcDbLine
 10
0.0
 20
0.0
 30
0.0
 11
0.0
 21
-2.5
 31
0.0
  0
LINE
  5
8D
330
87
100
AcDbEntity
  8
FORMAT
 62
     0
100
AcDbLine
 10
0.0
 20
0.0
 30
0.0
 11
2.5
 21
0.0
 31
0.0
  0
LINE
  5
8E
330
87
100
AcDbEntity
  8
FORMAT
 62
     0
100
AcDbLine
 10
0.0
 20
5.0
 30
0.0
 11
0.0
 21
31.5
 31
0.0
  0
LINE
  5
8F
330
87
100
AcDbEntity
  8
FORMAT
 62
     0
100
AcDbLine
 10
-5.0
 20
0.0
 30
0.0
 11
-31.5
 21
0.0
 31
0.0
  0
LINE
  5
90
330
87
100
AcDbEntity
  8
FORMAT
 62
     0
100
AcDbLine
 10
0.0
 20
-5.0
 30
0.0
 11
0.0
 21
-31.5
 31
0.0
  0
LINE
  5
91
330
87
100
AcDbEntity
  8
FORMAT
 62
     0
100
AcDbLine
 10
5.0
 20
0.0
 30
0.0
 11
31.5
 21
0.0
 31
0.0
  0
ENDBLK
  5
89
330
87
100
AcDbEntity
  8
0
100
AcDbBlockEnd
  0
ENDSEC
  0
SECTION
  2
ENTITIES
  0
CIRCLE
  5
83
330
1F
100
AcDbEntity
  8
0
  6
Continuous
 62
     7
370
    25
100
AcDbCircle
 10
141.7534580321
 20
110.0780823066
 30
0.0
 40
12.5
  0
CIRCLE
  5
84
330
1F
100
AcDbEntity
  8
0
  6
Continuous
 62
     7
370
    25
100
AcDbCircle
 10
141.7534580321
 20
110.0780823066
 30
0.0
 40
9.5
  0
CIRCLE
  5
85
330
1F
100
AcDbEntity
  8
0
  6
Continuous
 62
     7
370
    25
100
AcDbCircle
 10
141.7534580321
 20
110.0780823066
 30
0.0
 40
17.0
  0
CIRCLE
  5
86
330
1F
100
AcDbEntity
  8
0
  6
Continuous
 62
     7
370
    25
100
AcDbCircle
 10
141.7534580321
 20
110.0780823066
 30
0.0
 40
29.0
  0
INSERT
  5
92
330
1F
100
AcDbEntity
  8
FORMAT
 62
     7
100
AcDbBlockReference
  2
SW_CENTERMARKSYMBOL_0
 10
141.7534580321
 20
110.0780823066
 30
0.0
  0
LINE
  5
93
330
1F
100
AcDbEntity
  8
0
  6
Continuous
 62
     7
370
    25
100
AcDbLine
 10
170.7534580321
 20
153.090621553
 30
0.0
 11
170.7534580321
 21
162.090621553
 31
0.0
  0
LINE
  5
94
330
1F
100
AcDbEntity
  8
0
  6
Continuous
 62
     7
370
    25
100
AcDbLine
 10
112.7534580321
 20
162.090621553
 30
0.0
 11
112.7534580321
 21
153.090621553
 31
0.0
  0
LINE
  5
95
330
1F
100
AcDbEntity
  8
0
  6
Continuous
 62
     7
370
    25
100
AcDbLine
 10
158.7534580321
 20
162.090621553
 30
0.0
 11
154.2534580321
 21
172.090621553
 31
0.0
  0
LINE
  5
96
330
1F
100
AcDbEntity
  8
0
  6
Continuous
 62
     7
370
    25
100
AcDbLine
 10
129.2534580321
 20
172.090621553
 30
0.0
 11
124.7534580321
 21
162.090621553
 31
0.0
  0
LINE
  5
97
330
1F
100
AcDbEntity
  8
0
  6
Continuous
 62
     7
370
    25
100
AcDbLine
 10
154.2534580321
 20
172.090621553
 30
0.0
 11
154.2534580321
 21
234.090621553
 31
0.0
  0
LINE
  5
98
330
1F
100
AcDbEntity
  8
0
  6
Continuous
 62
     7
370
    25
100
AcDbLine
 10
129.2534580321
 20
234.090621553
 30
0.0
 11
129.2534580321
 21
172.090621553
 31
0.0
  0
LINE
  5
99
330
1F
100
AcDbEntity
  8
0
  6
Continuous
 62
     7
370
    25
100
AcDbLine
 10
170.7534580321
 20
153.090621553
 30
0.0
 11
112.7534580321
 21
153.090621553
 31
0.0
  0
LINE
  5
9A
330
1F
100
AcDbEntity
  8
0
  6
Continuous
 62
     7
370
    25
100
AcDbLine
 10
170.7534580321
 20
162.090621553
 30
0.0
 11
112.7534580321
 21
162.090621553
 31
0.0
  0
LINE
  5
9B
330
1F
100
AcDbEntity
  8
0
  6
Continuous
 62
     7
370
    25
100
AcDbLine
 10
154.2534580321
 20
172.090621553
 30
0.0
 11
129.2534580321
 21
172.090621553
 31
0.0
  0
LINE
  5
9C
330
1F
100
AcDbEntity
  8
0
  6
Continuous
 62
     7
370
    25
100
AcDbLine
 10
154.2534580321
 20
234.090621553
 30
0.0
 11
129.2534580321
 21
234.090621553
 31
0.0
  0
LINE
  5
9D
330
1F
100
AcDbEntity
  8
0
  6
Continuous
 62
     7
370
    25
100
AcDbLine
 10
91.2621023741
 20
139.0780823066
 30
0.0
 11
82.2621023741
 21
139.0780823066
 31
0.0
  0
LINE
  5
9E
330
1F
100
AcDbEntity
  8
0
  6
Continuous
 62
     7
370
    25
100
AcDbLine
 10
82.2621023741
 20
81.0780823066
 30
0.0
 11
91.2621023741
 21
81.0780823066
 31
0.0
  0
LINE
  5
9F
330
1F
100
AcDbEntity
  8
0
  6
Continuous
 62
     7
370
    25
100
AcDbLine
 10
82.2621023741
 20
127.0780823066
 30
0.0
 11
72.2621023741
 21
122.5780823066
 31
0.0
  0
LINE
  5
A0
330
1F
100
AcDbEntity
  8
0
  6
Continuous
 62
     7
370
    25
100
AcDbLine
 10
72.2621023741
 20
97.5780823066
 30
0.0
 11
82.2621023741
 21
93.0780823066
 31
0.0
  0
LINE
  5
A1
330
1F
100
AcDbEntity
  8
0
  6
Continuous
 62
     7
370
    25
100
AcDbLine
 10
72.2621023741
 20
122.5780823066
 30
0.0
 11
10.2621023741
 21
122.5780823066
 31
0.0
  0
LINE
  5
A2
330
1F
100
AcDbEntity
  8
0
  6
Continuous
 62
     7
370
    25
100
AcDbLine
 10
10.2621023741
 20
97.5780823066
 30
0.0
 11
72.2621023741
 21
97.5780823066
 31
0.0
  0
LINE
  5
A3
330
1F
100
AcDbEntity
  8
0
  6
Continuous
 62
     7
370
    25
100
AcDbLine
 10
91.2621023741
 20
139.0780823066
 30
0.0
 11
91.2621023741
 21
81.0780823066
 31
0.0
  0
LINE
  5
A4
330
1F
100
AcDbEntity
  8
0
  6
Continuous
 62
     7
370
    25
100
AcDbLine
 10
82.2621023741
 20
139.0780823066
 30
0.0
 11
82.2621023741
 21
81.0780823066
 31
0.0
  0
LINE
  5
A5
330
1F
100
AcDbEntity
  8
0
  6
Continuous
 62
     7
370
    25
100
AcDbLine
 10
72.2621023741
 20
122.5780823066
 30
0.0
 11
72.2621023741
 21
97.5780823066
 31
0.0
  0
LINE
  5
A6
330
1F
100
AcDbEntity
  8
0
  6
Continuous
 62
     7
370
    25
100
AcDbLine
 10
10.2621023741
 20
122.5780823066
 30
0.0
 11
10.2621023741
 21
97.5780823066
 31
0.0
  0
LINE
  5
A7
330
1F
100
AcDbEntity
  8
0
  6
Continuous
 62
     7
370
    25
100
AcDbLine
 10
188.2673576444
 20
81.0780823066
 30
0.0
 11
197.2673576444
 21
81.0780823066
 31
0.0
  0
LINE
  5
A8
330
1F
100
AcDbEntity
  8
0
  6
Continuous
 62
     7
370
    25
100
AcDbLine
 10
197.2673576444
 20
139.0780823066
 30
0.0
 11
188.2673576444
 21
139.0780823066
 31
0.0
  0
LINE
  5
A9
330
1F
100
AcDbEntity
  8
0
  6
Continuous
 62
     7
370
    25
100
AcDbLine
 10
197.2673576444
 20
93.0780823066
 30
0.0
 11
207.2673576444
 21
97.5780823066
 31
0.0
  0
LINE
  5
AA
330
1F
100
AcDbEntity
  8
0
  6
Continuous
 62
     7
370
    25
100
AcDbLine
 10
207.2673576444
 20
122.5780823066
 30
0.0
 11
197.2673576444
 21
127.0780823066
 31
0.0
  0
LINE
  5
AB
330
1F
100
AcDbEntity
  8
0
  6
Continuous
 62
     7
370
    25
100
AcDbLine
 10
207.2673576444
 20
97.5780823066
 30
0.0
 11
269.2673576444
 21
97.5780823066
 31
0.0
  0
LINE
  5
AC
330
1F
100
AcDbEntity
  8
0
  6
Continuous
 62
     7
370
    25
100
AcDbLine
 10
269.2673576444
 20
122.5780823066
 30
0.0
 11
207.2673576444
 21
122.5780823066
 31
0.0
  0
LINE
  5
AD
330
1F
100
AcDbEntity
  8
0
  6
Continuous
 62
     7
370
    25
100
AcDbLine
 10
188.2673576444
 20
110.0780823066
 30
0.0
 11
188.2673576444
 21
139.0780823066
 31
0.0
  0
LINE
  5
AE
330
1F
100
AcDbEntity
  8
0
  6
Continuous
 62
     7
370
    25
100
AcDbLine
 10
188.2673576444
 20
81.0780823066
 30
0.0
 11
188.2673576444
 21
110.0780823066
 31
0.0
  0
LINE
  5
AF
330
1F
100
AcDbEntity
  8
0
  6
Continuous
 62
     7
370
    25
100
AcDbLine
 10
197.2673576444
 20
110.0780823066
 30
0.0
 11
197.2673576444
 21
139.0780823066
 31
0.0
  0
LINE
  5
B0
330
1F
100
AcDbEntity
  8
0
  6
Continuous
 62
     7
370
    25
100
AcDbLine
 10
197.2673576444
 20
81.0780823066
 30
0.0
 11
197.2673576444
 21
110.0780823066
 31
0.0
  0
LINE
  5
B1
330
1F
100
AcDbEntity
  8
0
  6
Continuous
 62
     7
370
    25
100
AcDbLine
 10
207.2673576444
 20
110.0780823066
 30
0.0
 11
207.2673576444
 21
122.5780823066
 31
0.0
  0
LINE
  5
B2
330
1F
100
AcDbEntity
  8
0
  6
Continuous
 62
     7
370
    25
100
AcDbLine
 10
207.2673576444
 20
97.5780823066
 30
0.0
 11
207.2673576444
 21
110.0780823066
 31
0.0
  0
LINE
  5
B3
330
1F
100
AcDbEntity
  8
0
  6
Continuous
 62
     7
370
    25
100
AcDbLine
 10
269.2673576444
 20
110.0780823066
 30
0.0
 11
269.2673576444
 21
122.5780823066
 31
0.0
  0
LINE
  5
B4
330
1F
100
AcDbEntity
  8
0
  6
Continuous
 62
     7
370
    25
100
AcDbLine
 10
269.2673576444
 20
97.5780823066
 30
0.0
 11
269.2673576444
 21
110.0780823066
 31
0.0
  0
LINE
  5
B5
330
1F
100
AcDbEntity
  8
0
  6
Continuous
 62
     7
370
    25
100
AcDbLine
 10
112.7534580321
 20
67.9580209528
 30
0.0
 11
112.7534580321
 21
58.9580209528
 31
0.0
  0
LINE
  5
B6
330
1F
100
AcDbEntity
  8
0
  6
Continuous
 62
     7
370
    25
100
AcDbLine
 10
170.7534580321
 20
58.9580209528
 30
0.0
 11
170.7534580321
 21
67.9580209528
 31
0.0
  0
LINE
  5
B7
330
1F
100
AcDbEntity
  8
0
  6
Continuous
 62
     7
370
    25
100
AcDbLine
 10
124.7534580321
 20
58.9580209528
 30
0.0
 11
129.2534580321
 21
48.9580209528
 31
0.0
  0
LINE
  5
B8
330
1F
100
AcDbEntity
  8
0
  6
Continuous
 62
     7
370
    25
100
AcDbLine
 10
154.2534580321
 20
48.9580209528
 30
0.0
 11
158.7534580321
 21
58.9580209528
 31
0.0
  0
LINE
  5
B9
330
1F
100
AcDbEntity
  8
0
  6
Continuous
 62
     7
370
    25
100
AcDbLine
 10
129.2534580321
 20
48.9580209528
 30
0.0
 11
129.2534580321
 21
-13.0419790472
 31
0.0
  0
LINE
  5
BA
330
1F
100
AcDbEntity
  8
0
  6
Continuous
 62
     7
370
    25
100
AcDbLine
 10
154.2534580321
 20
-13.0419790472
 30
0.0
 11
154.2534580321
 21
48.9580209528
 31
0.0
  0
LINE
  5
BB
330
1F
100
AcDbEntity
  8
0
  6
Continuous
 62
     7
370
    25
100
AcDbLine
 10
112.7534580321
 20
67.9580209528
 30
0.0
 11
170.7534580321
 21
67.9580209528
 31
0.0
  0
LINE
  5
BC
330
1F
100
AcDbEntity
  8
0
  6
Continuous
 62
     7
370
    25
100
AcDbLine
 10
112.7534580321
 20
58.9580209528
 30
0.0
 11
170.7534580321
 21
58.9580209528
 31
0.0
  0
LINE
  5
BD
330
1F
100
AcDbEntity
  8
0
  6
Continuous
 62
     7
370
    25
100
AcDbLine
 10
129.2534580321
 20
48.9580209528
 30
0.0
 11
154.2534580321
 21
48.9580209528
 31
0.0
  0
LINE
  5
BE
330
1F
100
AcDbEntity
  8
0
  6
Continuous
 62
     7
370
    25
100
AcDbLine
 10
129.2534580321
 20
-13.0419790472
 30
0.0
 11
154.2534580321
 21
-13.0419790472
 31
0.0
  0
LINE
  5
BF
330
1F
100
AcDbEntity
  8
0
  6
Continuous
 62
     7
370
    25
100
AcDbLine
 10
226.3572598904
 20
42.5353040287
 30
0.0
 11
197.4221457768
 21
14.2937456068
 31
0.0
  0
LINE
  5
C0
330
1F
100
AcDbEntity
  8
0
  6
Continuous
 62
     7
370
    25
100
AcDbLine
 10
214.884099743
 20
-3.5970387158
 30
0.0
 11
243.8192138567
 21
24.644519706
 31
0.0
  0
LINE
  5
C1
330
1F
100
AcDbEntity
  8
0
  6
Continuous
 62
     7
370
    25
100
AcDbLine
 10
223.6995826624
 20
62.9978928109
 30
0.0
 11
219.499324162
 21
58.8983117497
 31
0.0
  0
LINE
  5
C2
330
1F
100
AcDbEntity
  8
0
  6
Continuous
 62
     7
370
    25
100
AcDbLine
 10
260.0110573637
 20
17.3916921211
 30
0.0
 11
264.2113158641
 21
21.4912731824
 31
0.0
  0
LINE
  5
C3
330
1F
100
AcDbEntity
  8
0
  6
Continuous
 62
     7
370
    25
100
AcDbLine
 10
224.8107629035
 20
43.8045768282
 30
0.0
 11
224.4420745526
 21
40.6660244263
 31
0.0
  0
LINE
  5
C4
330
1F
100
AcDbEntity
  8
0
  6
Continuous
 62
     7
370
    25
100
AcDbLine
 10
241.9040285189
 20
22.7752401036
 30
0.0
 11
245.0506005536
 21
23.0676896033
 31
0.0
  0
LWPOLYLINE
  5
C5
330
1F
100
AcDbEntity
  8
0
  6
Continuous
 62
     7
370
    25
100
AcDbPolyline
 90
       80
 70
   128
 43
0.0
 10
195.0978962389
 20
8.352927129
 10
195.1328435897
 20
9.1947052525
 10
195.2374646936
 20
10.0121655014
 10
195.4110981023
 20
10.8001396289
 10
195.6526460495
 20
11.5536458088
 10
195.9605813913
 20
12.2679201324
 10
196.3329572613
 20
12.9384467276
 10
196.7674193794
 20
13.5609863093
 10
197.2612209363
 20
14.1316029817
 10
197.8112399593
 20
14.6466891227
 10
198.4139990513
 20
15.1029881917
 10
199.0656873752
 20
15.4976153191
 10
199.7621847474
 20
15.8280755452
 10
200.4990876875
 20
16.0922795941
 10
201.2717372578
 20
16.2885570826
 10
202.0752485189
 20
16.4156670812
 10
202.9045414138
 20
16.4728059597
 10
203.754372886
 20
16.4596124677
 10
204.6193700272
 20
16.3761700187
 10
205.4940640471
 20
16.2230061626
 10
206.3729248483
 20
16.0010892507
 10
207.2503959899
 20
15.7118223132
 10
208.1209298169
 20
15.3570341888
 10
208.979022534
 20
14.9389679623
 10
209.819249003
 20
14.4602667828
 10
210.6362970415
 20
13.9239571535
 10
211.4250010087
 20
13.3334297964
 10
212.1803744642
 20
12.6924182157
 10
212.8976416938
 20
12.004975093
 10
213.5722679033
 20
11.2754466649
 10
214.1999878883
 20
10.5084452452
 10
214.7768330012
 20
9.7088200637
 10
215.2991562414
 20
8.8816266083
 10
215.7636553131
 20
8.0320946624
 10
216.1673935037
 20
7.1655952404
 10
216.5078182504
 20
6.2876066306
 10
216.7827772782
 20
5.4036797599
 10
216.9905322078
 20
4.5194030983
 10
217.1297695455
 20
3.6403673278
 10
217.1996089881
 20
2.7721299954
 10
217.1996089881
 20
1.9201803771
 10
217.1297695455
 20
1.0899047727
 10
216.9905322078
 20
0.286552452
 10
216.7827772782
 20
-0.4847975332
 10
216.5078182504
 20
-1.2192684597
 10
216.1673935037
 20
-1.912216766
 10
215.7636553131
 20
-2.5592614097
 10
215.2991562414
 20
-3.1563115662
 10
214.7768330012
 20
-3.6995924924
 10
214.1999878883
 20
-4.1856693911
 10
213.5722679033
 20
-4.6114691278
 10
212.8976416938
 20
-4.9742996593
 10
212.1803744642
 20
-5.2718670544
 10
211.4250010087
 20
-5.5022899961
 10
210.6362970415
 20
-5.6641116764
 10
209.819249003
 20
-5.7563090064
 10
208.979022534
 20
-5.7782990851
 10
208.1209298169
 20
-5.729942884
 10
207.2503959899
 20
-5.6115461266
 10
206.3729248483
 20
-5.4238573554
 10
205.4940640471
 20
-5.1680631991
 10
204.6193700272
 20
-4.8457808709
 10
203.754372886
 20
-4.4590479433
 10
202.9045414138
 20
-4.0103094664
 10
202.0752485189
 20
-3.5024025094
 10
201.2717372578
 20
-2.9385382235
 10
200.4990876875
 20
-2.3222815404
 10
199.7621847474
 20
-1.6575286331
 10
199.0656873752
 20
-0.9484822837
 10
198.4139990513
 20
-0.1996253114
 10
197.8112399593
 20
0.5843077688
 10
197.2612209363
 20
1.3983606798
 10
196.7674193794
 20
2.2373867168
 10
196.3329572613
 20
3.096081287
 10
195.9605813913
 20
3.9690154471
 10
195.6526460495
 20
4.850670226
 10
195.4110981023
 20
5.7354715185
 10
195.2374646936
 20
6.6178253259
 10
195.1328435897
 20
7.4921531234
 10
195.0978962389
 20
8.352927129
  0
LWPOLYLINE
  5
C6
330
1F
100
AcDbEntity
  8
0
  6
Continuous
 62
     7
370
    25
100
AcDbPolyline
 90
       70
 70
   128
 43
0.0
 10
197.751150604
 20
7.631829445
 10
197.7859612976
 20
8.3628593538
 10
197.8901049263
 20
9.0689101172
 10
198.0627185231
 20
9.7441311763
 10
198.3023717574
 20
10.3829274368
 10
198.6070787869
 20
10.9800056316
 10
198.9743147134
 20
11.5304181827
 10
199.4010365042
 20
12.0296041985
 10
199.8837082082
 20
12.4734272664
 10
200.4183302556
 20
12.8582097286
 10
201.0004725998
 20
13.1807631566
 10
201.6253114261
 20
13.4384147709
 10
202.287669123
 20
13.6290295893
 10
202.9820571861
 20
13.7510281172
 10
203.7027216972
 20
13.8033994365
 10
204.4436910033
 20
13.7857095819
 10
205.1988251992
 20
13.6981051372
 10
205.9618670053
 20
13.5413120203
 10
206.7264936168
 20
13.3166294683
 10
207.4863690968
 20
13.0259192717
 10
208.2351968778
 20
12.6715903468
 10
208.9667719369
 20
12.2565787745
 10
209.6750322129
 20
11.7843234715
 10
210.3541088379
 20
11.2587376939
 10
210.9983747692
 20
10.6841766111
 10
211.6024914164
 20
10.065401217
 10
212.1614528787
 20
9.4075388796
 10
212.6706274254
 20
8.7160408532
 10
213.1257958759
 20
7.9966371084
 10
213.5231865609
 20
7.2552888511
 10
213.8595065762
 20
6.4981391265
 10
214.1319690682
 20
5.7314619156
 10
214.3383163268
 20
4.9616101472
 10
214.4768384938
 20
4.1949630557
 10
214.5463877307
 20
3.4378733201
 10
214.5463877307
 20
2.6966144246
 10
214.4768384938
 20
1.9773286737
 10
214.3383163268
 20
1.2859762957
 10
214.1319690682
 20
0.6282860542
 10
213.8595065762
 20
0.0097077776
 10
213.5231865609
 20
-0.5646327996
 10
213.1257958759
 20
-1.0899765106
 10
212.6706274254
 20
-1.5619701919
 10
212.1614528787
 20
-1.9767027553
 10
211.6024914164
 20
-2.330737596
 10
210.9983747692
 20
-2.6211410699
 10
210.3541088379
 20
-2.8455068024
 10
209.6750322129
 20
-3.0019756283
 10
208.9667719369
 20
-3.0892509977
 10
208.2351968778
 20
-3.1066097194
 10
207.4863690968
 20
-3.0539079535
 10
206.7264936168
 20
-2.9315824034
 10
205.9618670053
 20
-2.7406466973
 10
205.1988251992
 20
-2.4826829885
 10
204.4436910033
 20
-2.1598288454
 10
203.7027216972
 20
-1.7747595393
 10
202.9820571861
 20
-1.3306658757
 10
202.287669123
 20
-0.8312277546
 10
201.6253114261
 20
-0.2805836774
 10
201.0004725998
 20
0.3167035456
 10
200.4183302556
 20
0.9556846042
 10
199.8837082082
 20
1.6310647003
 10
199.4010365042
 20
2.3372474217
 10
198.9743147134
 20
3.0683811159
 10
198.6070787869
 20
3.8184073788
 10
198.3023717574
 20
4.5811112567
 10
198.0627185231
 20
5.350172745
 10
197.8901049263
 20
6.119219158
 10
197.7859612976
 20
6.8818779349
 10
197.751150604
 20
7.631829445
  0
LWPOLYLINE
  5
C7
330
1F
100
AcDbEntity
  8
0
  6
Continuous
 62
     7
370
    25
100
AcDbPolyline
 90
       41
 70
   128
 43
0.0
 10
226.3572598904
 20
42.5353040287
 10
226.746354073
 20
42.8882475445
 10
227.349113165
 20
43.3445466136
 10
228.0008014888
 20
43.739173741
 10
228.6972988611
 20
44.0696339671
 10
229.4342018012
 20
44.3338380159
 10
230.2068513715
 20
44.5301155044
 10
231.0103626325
 20
44.6572255031
 10
231.8396555275
 20
44.7143643816
 10
232.6894869997
 20
44.7011708896
 10
233.5544841409
 20
44.6177284405
 10
234.4291781607
 20
44.4645645845
 10
235.3080389619
 20
44.2426476726
 10
236.1855101035
 20
43.9533807351
 10
237.0560439305
 20
43.5985926107
 10
237.9141366477
 20
43.1805263841
 10
238.7543631167
 20
42.7018252047
 10
239.5714111551
 20
42.1655155754
 10
240.3601151223
 20
41.5749882183
 10
241.1154885779
 20
40.9339766376
 10
241.8327558075
 20
40.2465335148
 10
242.5073820169
 20
39.5170050868
 10
243.135102002
 20
38.750003667
 10
243.7119471149
 20
37.9503784855
 10
244.234270355
 20
37.1231850302
 10
244.6987694268
 20
36.2736530842
 10
245.1025076174
 20
35.4071536622
 10
245.442932364
 20
34.5291650525
 10
245.7178913919
 20
33.6452381817
 10
245.9256463215
 20
32.7609615202
 10
246.0648836592
 20
31.8819257496
 10
246.1347231018
 20
31.0136884172
 10
246.1347231018
 20
30.161738799
 10
246.0648836592
 20
29.3314631946
 10
245.9256463215
 20
28.5281108738
 10
245.7178913919
 20
27.7567608887
 10
245.442932364
 20
27.0222899622
 10
245.1025076174
 20
26.3293416559
 10
244.6987694268
 20
25.6822970122
 10
244.234270355
 20
25.0852468556
 10
243.8192138567
 20
24.644519706
  0
LWPOLYLINE
  5
C8
330
1F
100
AcDbEntity
  8
0
  6
Continuous
 62
     7
370
    25
100
AcDbPolyline
 90
       62
 70
   128
 43
0.0
 10
223.6995826624
 20
62.9978928109
 10
224.0231120897
 20
63.3053181074
 10
224.8951774934
 20
64.0579058459
 10
225.8194857772
 20
64.7507047827
 10
226.7935034763
 20
65.381816004
 10
227.8145608758
 20
65.9495096779
 10
228.8798593285
 20
66.4522297955
 10
229.9864789254
 20
66.8885984359
 10
231.1313864989
 20
67.2574195429
 10
232.3114439371
 20
67.5576822036
 10
233.5234167845
 20
67.7885634188
 10
234.7639831078
 20
67.9494303593
 10
236.029742601
 20
68.0398420998
 10
237.3172259052
 20
68.0595508282
 10
238.6229041183
 20
68.0085025241
 10
239.9431984669
 20
67.8868371074
 10
241.274490116
 20
67.6948880546
 10
242.6131300878
 20
67.4331814846
 10
243.9554492632
 20
67.102434717
 10
245.2977684386
 20
66.7035543057
 10
246.6364084104
 20
66.2376335542
 10
247.9677000596
 20
65.7059495188
 10
249.2879944082
 20
65.1099595085
 10
250.5936726212
 20
64.4512970906
 10
251.8811559254
 20
63.731767613
 10
253.1469154186
 20
62.9533432558
 10
254.3874817419
 20
62.1181576262
 10
255.5994545894
 20
61.22849991
 10
256.7795120275
 20
60.2868085971
 10
257.9244196011
 20
59.2956647979
 10
259.0310391979
 20
58.2577851686
 10
260.0963376506
 20
57.1760144653
 10
261.1173950502
 20
56.0533177462
 10
262.0914127493
 20
54.892772245
 10
263.015721033
 20
53.6975589363
 10
263.8877864368
 20
52.4709538165
 10
264.7052186898
 20
51.2163189252
 10
265.4657772671
 20
49.9370931293
 10
266.1673775305
 20
48.6367826978
 10
266.8080964424
 20
47.3189516913
 10
267.386177837
 20
45.9872121929
 10
267.9000372331
 20
44.645214408
 10
268.348266178
 20
43.2966366593
 10
268.7296361072
 20
41.9451753046
 10
269.0431017124
 20
40.5945346056
 10
269.287803806
 20
39.2484165745
 10
269.4630716766
 20
37.9105108274
 10
269.5684249272
 20
36.5844844708
 10
269.6035747919
 20
35.2739720508
 10
269.5684249272
 20
33.9825655909
 10
269.4630716766
 20
32.7138047465
 10
269.287803806
 20
31.4711671027
 10
269.0431017124
 20
30.2580586431
 10
268.7296361072
 20
29.0778044135
 10
268.348266178
 20
27.9336394088
 10
267.9000372331
 20
26.8286997058
 10
267.386177837
 20
25.7660138673
 10
266.8080964424
 20
24.7484946413
 10
266.1673775305
 20
23.7789309775
 10
265.4657772671
 20
22.8599803823
 10
264.7052186898
 20
21.9941616354
 10
264.2113158641
 20
21.4912731824
  0
LWPOLYLINE
  5
C9
330
1F
100
AcDbEntity
  8
0
  6
Continuous
 62
     7
370
    25
100
AcDbPolyline
 90
       96
 70
   128
 43
0.0
 10
214.1070652342
 20
45.1156128812
 10
214.1422150989
 20
46.4070193411
 10
214.2475683495
 20
47.6757801856
 10
214.4228362201
 20
48.9184178294
 10
214.6675383137
 20
50.131526289
 10
214.9810039188
 20
51.3117805186
 10
215.3623738481
 20
52.4559455232
 10
215.810602793
 20
53.5608852263
 10
216.3244621891
 20
54.6235710648
 10
216.9025435836
 20
55.6410902907
 10
217.5432624956
 20
56.6106539546
 10
218.244862759
 20
57.5296045498
 10
219.0054213363
 20
58.3954232967
 10
219.8228535893
 20
59.2057370462
 10
220.694918993
 20
59.9583247846
 10
221.6192272768
 20
60.6511237214
 10
222.5932449759
 20
61.2822349428
 10
223.6143023755
 20
61.8499286167
 10
224.6796008282
 20
62.3526487343
 10
225.786220425
 20
62.7890173746
 10
226.9311279985
 20
63.1578384817
 10
228.1111854367
 20
63.4581011423
 10
229.3231582841
 20
63.6889823576
 10
230.5637246075
 20
63.849849298
 10
231.8294841006
 20
63.9402610386
 10
233.1169674049
 20
63.9599697669
 10
234.4226456179
 20
63.9089214629
 10
235.7429399665
 20
63.7872560462
 10
237.0742316156
 20
63.5953069933
 10
238.4128715875
 20
63.3336004234
 10
239.7551907629
 20
63.0028536558
 10
241.0975099382
 20
62.6039732445
 10
242.4361499101
 20
62.1380524929
 10
243.7674415592
 20
61.6063684575
 10
245.0877359078
 20
61.0103784473
 10
246.3934141208
 20
60.3517160294
 10
247.6808974251
 20
59.6321865517
 10
248.9466569182
 20
58.8537621946
 10
250.1872232416
 20
58.018576565
 10
251.399196089
 20
57.1289188488
 10
252.5792535272
 20
56.1872275358
 10
253.7241611007
 20
55.1960837366
 10
254.8307806975
 20
54.1582041074
 10
255.8960791502
 20
53.0764334041
 10
256.9171365498
 20
51.953736685
 10
257.8911542489
 20
50.7931911838
 10
258.8154625327
 20
49.597977875
 10
259.6875279364
 20
48.3713727553
 10
260.5049601894
 20
47.116737864
 10
261.2655187667
 20
45.8375120681
 10
261.9671190301
 20
44.5372016366
 10
262.6078379421
 20
43.2193706301
 10
263.1859193366
 20
41.8876311317
 10
263.6997787327
 20
40.5456333468
 10
264.1480076776
 20
39.1970555981
 10
264.5293776069
 20
37.8455942434
 10
264.842843212
 20
36.4949535444
 10
265.0875453056
 20
35.1488355133
 10
265.2628131762
 20
33.8109297661
 10
265.3681664268
 20
32.4849034095
 10
265.4033162915
 20
31.1743909896
 10
265.3681664268
 20
29.8829845297
 10
265.2628131762
 20
28.6142236852
 10
265.0875453056
 20
27.3715860415
 10
264.842843212
 20
26.1584775818
 10
264.5293776069
 20
24.9782233522
 10
264.1480076776
 20
23.8340583476
 10
263.6997787327
 20
22.7291186445
 10
263.1859193366
 20
21.666432806
 10
262.6078379421
 20
20.6489135801
 10
261.9671190301
 20
19.6793499162
 10
261.2655187667
 20
18.760399321
 10
260.5049601894
 20
17.8945805741
 10
259.6875279364
 20
17.0842668246
 10
258.8154625327
 20
16.3316790862
 10
257.8911542489
 20
15.6388801494
 10
256.9171365498
 20
15.0077689281
 10
255.8960791502
 20
14.4400752541
 10
254.8307806975
 20
13.9373551366
 10
253.7241611007
 20
13.5009864962
 10
252.5792535272
 20
13.1321653891
 10
251.399196089
 20
12.8319027285
 10
250.1872232416
 20
12.6010215132
 10
248.9466569182
 20
12.4401545728
 10
247.6808974251
 20
12.3497428322
 10
246.3934141208
 20
12.3300341039
 10
245.0877359078
 20
12.381082408
 10
243.7674415592
 20
12.5027478246
 10
242.4361499101
 20
12.6946968775
 10
241.0975099382
 20
12.9564034475
 10
239.7551907629
 20
13.287150215
 10
238.4128715875
 20
13.6860306264
 10
237.0742316156
 20
14.1519513779
 10
235.7429399665
 20
14.6836354133
 10
234.4226456179
 20
15.2796254235
 10
234.2897549233
 20
15.343475648
  0
ARC
  5
CA
330
1F
100
AcDbEntity
  8
0
  6
Continuous
 62
     7
370
    25
100
AcDbCircle
 10
243.0317724141
 20
45.4869518358
 30
0.0
 40
28.92709072931528
100
AcDbArc
 50
180.7355298691
 51
205.0602788992
  0
LWPOLYLINE
  5
CB
330
1F
100
AcDbEntity
  8
0
  6
Continuous
 62
     7
370
    25
100
AcDbPolyline
 90
       64
 70
   128
 43
0.0
 10
224.8107629035
 20
43.8045768282
 10
224.8601205022
 20
44.1773620534
 10
225.0345556964
 20
45.1104844273
 10
225.2776252865
 20
46.0111305064
 10
225.5881959701
 20
46.8751010629
 10
225.9648197231
 20
47.6983678674
 10
226.4057405517
 20
48.4770924698
 10
226.9089026797
 20
49.2076440967
 10
227.4719601327
 20
49.8866165792
 10
228.0922876771
 20
50.510844234
 10
228.7669930596
 20
51.0774166237
 10
229.4929304921
 20
51.5836921262
 10
230.2667153192
 20
52.0273102516
 10
231.0847397989
 20
52.4062026472
 10
231.9431899234
 20
52.7186027419
 10
232.838063202
 20
52.9630539822
 10
233.7651873224
 20
53.1384166235
 10
234.7202396039
 20
53.2438730443
 10
235.698767152
 20
53.2789315581
 10
236.6962076194
 20
53.2434287059
 10
237.7079104784
 20
53.1375300183
 10
238.7291587031
 20
52.961729244
 10
239.7551907629
 20
52.7168460473
 10
240.7812228226
 20
52.4040221868
 10
241.8024710473
 20
52.0247161915
 10
242.8141739063
 20
51.5806965613
 10
243.8116143737
 20
51.0740335205
 10
244.7901419218
 20
50.5070893662
 10
245.7451942033
 20
49.8825074538
 10
246.6723183237
 20
49.2031998723
 10
247.5671916023
 20
48.4723338674
 10
248.4256417268
 20
47.6933170738
 10
249.2436662065
 20
46.8697816273
 10
250.0174510336
 20
46.0055672303
 10
250.7433884661
 20
45.1047032493
 10
251.4180938486
 20
44.1713899281
 10
252.038421393
 20
43.2099788042
 10
252.601478846
 20
42.22495242
 10
253.104640974
 20
41.2209034233
 10
253.5455618027
 20
40.202513154
 10
253.9221855556
 20
39.1745298175
 10
254.2327562392
 20
38.1417463469
 10
254.4758258293
 20
37.1089780552
 10
254.6502610235
 20
36.0810401852
 10
254.7552485242
 20
35.0627254576
 10
254.7902988314
 20
34.0587817258
 10
254.7552485242
 20
33.0738898389
 10
254.6502610235
 20
32.1126418174
 10
254.4758258293
 20
31.1795194436
 10
254.2327562392
 20
30.2788733644
 10
253.9221855556
 20
29.4149028079
 10
253.5455618027
 20
28.5916360034
 10
253.104640974
 20
27.812911401
 10
252.601478846
 20
27.0823597741
 10
252.038421393
 20
26.4033872917
 10
251.4180938486
 20
25.7791596369
 10
250.7433884661
 20
25.2125872472
 10
250.0174510336
 20
24.7063117446
 10
249.2436662065
 20
24.2626936192
 10
248.4256417268
 20
23.8838012236
 10
247.5671916023
 20
23.5714011289
 10
246.6723183237
 20
23.3269498886
 10
245.7451942033
 20
23.1515872473
 10
245.0506005536
 20
23.0676896033
  0
ENDSEC
  0
SECTION
  2
OBJECTS
  0
DICTIONARY
  5
C
330
0
100
AcDbDictionary
281
     1
  3
ACAD_GROUP
350
D
  3
ACAD_LAYOUT
350
1A
  3
ACAD_MLINESTYLE
350
17
  3
ACAD_PLOTSETTINGS
350
19
  3
ACAD_PLOTSTYLENAME
350
E
  3
ACAD_SCALELIST
350
47
  0
DICTIONARY
  5
D
102
{ACAD_REACTORS
330
C
102
}
330
C
100
AcDbDictionary
281
     1
  0
DICTIONARY
  5
1A
102
{ACAD_REACTORS
330
C
102
}
330
C
100
AcDbDictionary
281
     1
  3
Layout1
350
1E
  3
Layout2
350
26
  3
Model
350
22
  0
DICTIONARY
  5
17
102
{ACAD_REACTORS
330
C
102
}
330
C
100
AcDbDictionary
281
     1
  3
Standard
350
18
  0
DICTIONARY
  5
19
102
{ACAD_REACTORS
330
C
102
}
330
C
100
AcDbDictionary
281
     1
  0
ACDBDICTIONARYWDFLT
  5
E
102
{ACAD_REACTORS
330
C
102
}
330
C
100
AcDbDictionary
281
     1
  3
Normal
350
F
100
AcDbDictionaryWithDefault
340
F
  0
DICTIONARY
  5
47
102
{ACAD_REACTORS
330
C
102
}
330
C
100
AcDbDictionary
281
     1
  3
A0
350
48
  3
A1
350
49
  3
A2
350
4A
  3
A3
350
4B
  3
A4
350
4C
  3
A5
350
4D
  3
A6
350
4E
  3
A7
350
4F
  3
A8
350
50
  3
A9
350
51
  3
B0
350
52
  3
B1
350
53
  3
B2
350
54
  3
B3
350
55
  3
B4
350
56
  3
B5
350
57
  3
B6
350
58
  3
B7
350
59
  3
B8
350
5A
  3
B9
350
5B
  3
C0
350
5C
  3
C1
350
5D
  3
C2
350
5E
  3
C3
350
5F
  3
C4
350
60
  3
C5
350
61
  3
C6
350
62
  3
C7
350
63
  3
C8
350
64
  3
C9
350
65
  3
D0
350
66
  3
D1
350
67
  3
D2
350
68
  0
LAYOUT
  5
1E
102
{ACAD_REACTORS
330
1A
102
}
330
1A
100
AcDbPlotSettings
  1

  2
none_device
  4

  6

 40
0.0
 41
0.0
 42
0.0
 43
0.0
 44
0.0
 45
0.0
 46
0.0
 47
0.0
 48
0.0
 49
0.0
140
0.0
141
0.0
142
1.0
143
1.0
 70
   688
 72
     1
 73
     0
 74
     5
  7

 75
    16
147
1.0
148
0.0
149
0.0
100
AcDbLayout
  1
Layout1
 70
     1
 71
     1
 10
0.0
 20
0.0
 11
420.0
 21
297.0
 12
0.0
 22
0.0
 32
0.0
 14
1.0000000000E+20
 24
1.0000000000E+20
 34
1.0000000000E+20
 15
-1.0000000000E+20
 25
-1.0000000000E+20
 35
-1.0000000000E+20
146
0.0
 13
0.0
 23
0.0
 33
0.0
 16
1.0
 26
0.0
 36
0.0
 17
0.0
 27
1.0
 37
0.0
 76
     0
330
1B
  0
LAYOUT
  5
26
102
{ACAD_REACTORS
330
1A
102
}
330
1A
100
AcDbPlotSettings
  1

  2
none_device
  4

  6

 40
0.0
 41
0.0
 42
0.0
 43
0.0
 44
0.0
 45
0.0
 46
0.0
 47
0.0
 48
0.0
 49
0.0
140
0.0
141
0.0
142
1.0
143
1.0
 70
   688
 72
     1
 73
     0
 74
     5
  7

 75
    16
147
1.0
148
0.0
149
0.0
100
AcDbLayout
  1
Layout2
 70
     1
 71
     2
 10
0.0
 20
0.0
 11
0.0
 21
0.0
 12
0.0
 22
0.0
 32
0.0
 14
0.0
 24
0.0
 34
0.0
 15
0.0
 25
0.0
 35
0.0
146
0.0
 13
0.0
 23
0.0
 33
0.0
 16
1.0
 26
0.0
 36
0.0
 17
0.0
 27
1.0
 37
0.0
 76
     0
330
23
  0
LAYOUT
  5
22
102
{ACAD_REACTORS
330
1A
102
}
330
1A
100
AcDbPlotSettings
  1

  2
none_device
  4
Letter_(8.50_x_11.00_Inches)
  6

 40
6.35
 41
6.35
 42
6.35000508
 43
6.35000508
 44
215.9
 45
279.4
 46
0.0
 47
0.0
 48
0.0
 49
0.0
140
0.0
141
0.0
142
1.0
143
1.0
 70
  1712
 72
     1
 73
     0
 74
     0
  7

 75
     0
147
1.0
148
0.0
149
0.0
100
AcDbLayout
  1
Model
 70
     1
 71
     0
 10
0.0
 20
0.0
 11
279.4
 21
215.9
 12
0.0
 22
0.0
 32
0.0
 14
0.0
 24
0.0
 34
0.0
 15
279.4
 25
215.9
 35
0.0
146
0.0
 13
0.0
 23
0.0
 33
0.0
 16
1.0
 26
0.0
 36
0.0
 17
0.0
 27
1.0
 37
0.0
 76
     0
330
1F
331
29
  0
MLINESTYLE
  5
18
102
{ACAD_REACTORS
330
17
102
}
330
17
100
AcDbMlineStyle
  2
Standard
 70
     0
  3

 62
   256
 51
90.0
 52
90.0
 71
     2
 49
0.5
 62
   256
  6
BYLAYER
 49
-0.5
 62
   256
  6
BYLAYER
  0
ACDBPLACEHOLDER
  5
F
102
{ACAD_REACTORS
330
E
102
}
330
E
  0
SCALE
  5
48
102
{ACAD_REACTORS
330
47
102
}
330
47
100
AcDbScale
 70
     0
300
1:1
140
1.0
141
1.0
290
     1
  0
SCALE
  5
49
102
{ACAD_REACTORS
330
47
102
}
330
47
100
AcDbScale
 70
     0
300
1:2
140
1.0
141
2.0
290
     0
  0
SCALE
  5
4A
102
{ACAD_REACTORS
330
47
102
}
330
47
100
AcDbScale
 70
     0
300
1:4
140
1.0
141
4.0
290
     0
  0
SCALE
  5
4B
102
{ACAD_REACTORS
330
47
102
}
330
47
100
AcDbScale
 70
     0
300
1:5
140
1.0
141
5.0
290
     0
  0
SCALE
  5
4C
102
{ACAD_REACTORS
330
47
102
}
330
47
100
AcDbScale
 70
     0
300
1:8
140
1.0
141
8.0
290
     0
  0
SCALE
  5
4D
102
{ACAD_REACTORS
330
47
102
}
330
47
100
AcDbScale
 70
     0
300
1:10
140
1.0
141
10.0
290
     0
  0
SCALE
  5
4E
102
{ACAD_REACTORS
330
47
102
}
330
47
100
AcDbScale
 70
     0
300
1:16
140
1.0
141
16.0
290
     0
  0
SCALE
  5
4F
102
{ACAD_REACTORS
330
47
102
}
330
47
100
AcDbScale
 70
     0
300
1:20
140
1.0
141
20.0
290
     0
  0
SCALE
  5
50
102
{ACAD_REACTORS
330
47
102
}
330
47
100
AcDbScale
 70
     0
300
1:30
140
1.0
141
30.0
290
     0
  0
SCALE
  5
51
102
{ACAD_REACTORS
330
47
102
}
330
47
100
AcDbScale
 70
     0
300
1:40
140
1.0
141
40.0
290
     0
  0
SCALE
  5
52
102
{ACAD_REACTORS
330
47
102
}
330
47
100
AcDbScale
 70
     0
300
1:50
140
1.0
141
50.0
290
     0
  0
SCALE
  5
53
102
{ACAD_REACTORS
330
47
102
}
330
47
100
AcDbScale
 70
     0
300
1:100
140
1.0
141
100.0
290
     0
  0
SCALE
  5
54
102
{ACAD_REACTORS
330
47
102
}
330
47
100
AcDbScale
 70
     0
300
2:1
140
2.0
141
1.0
290
     0
  0
SCALE
  5
55
102
{ACAD_REACTORS
330
47
102
}
330
47
100
AcDbScale
 70
     0
300
4:1
140
4.0
141
1.0
290
     0
  0
SCALE
  5
56
102
{ACAD_REACTORS
330
47
102
}
330
47
100
AcDbScale
 70
     0
300
8:1
140
8.0
141
1.0
290
     0
  0
SCALE
  5
57
102
{ACAD_REACTORS
330
47
102
}
330
47
100
AcDbScale
 70
     0
300
10:1
140
10.0
141
1.0
290
     0
  0
SCALE
  5
58
102
{ACAD_REACTORS
330
47
102
}
330
47
100
AcDbScale
 70
     0
300
100:1
140
100.0
141
1.0
290
     0
  0
SCALE
  5
59
102
{ACAD_REACTORS
330
47
102
}
330
47
100
AcDbScale
 70
     0
300
1/128" = 1'-0"
140
0.0078125
141
12.0
290
     0
  0
SCALE
  5
5A
102
{ACAD_REACTORS
330
47
102
}
330
47
100
AcDbScale
 70
     0
300
1/64" = 1'-0"
140
0.015625
141
12.0
290
     0
  0
SCALE
  5
5B
102
{ACAD_REACTORS
330
47
102
}
330
47
100
AcDbScale
 70
     0
300
1/32" = 1'-0"
140
0.03125
141
12.0
290
     0
  0
SCALE
  5
5C
102
{ACAD_REACTORS
330
47
102
}
330
47
100
AcDbScale
 70
     0
300
1/16" = 1'-0"
140
0.0625
141
12.0
290
     0
  0
SCALE
  5
5D
102
{ACAD_REACTORS
330
47
102
}
330
47
100
AcDbScale
 70
     0
300
3/32" = 1'-0"
140
0.09375
141
12.0
290
     0
  0
SCALE
  5
5E
102
{ACAD_REACTORS
330
47
102
}
330
47
100
AcDbScale
 70
     0
300
1/8" = 1'-0"
140
0.125
141
12.0
290
     0
  0
SCALE
  5
5F
102
{ACAD_REACTORS
330
47
102
}
330
47
100
AcDbScale
 70
     0
300
3/16" = 1'-0"
140
0.1875
141
12.0
290
     0
  0
SCALE
  5
60
102
{ACAD_REACTORS
330
47
102
}
330
47
100
AcDbScale
 70
     0
300
1/4" = 1'-0"
140
0.25
141
12.0
290
     0
  0
SCALE
  5
61
102
{ACAD_REACTORS
330
47
102
}
330
47
100
AcDbScale
 70
     0
300
3/8" = 1'-0"
140
0.375
141
12.0
290
     0
  0
SCALE
  5
62
102
{ACAD_REACTORS
330
47
102
}
330
47
100
AcDbScale
 70
     0
300
1/2" = 1'-0"
140
0.5
141
12.0
290
     0
  0
SCALE
  5
63
102
{ACAD_REACTORS
330
47
102
}
330
47
100
AcDbScale
 70
     0
300
3/4" = 1'-0"
140
0.75
141
12.0
290
     0
  0
SCALE
  5
64
102
{ACAD_REACTORS
330
47
102
}
330
47
100
AcDbScale
 70
     0
300
1" = 1'-0"
140
1.0
141
12.0
290
     0
  0
SCALE
  5
65
102
{ACAD_REACTORS
330
47
102
}
330
47
100
AcDbScale
 70
     0
300
1-1/2" = 1'-0"
140
1.5
141
12.0
290
     0
  0
SCALE
  5
66
102
{ACAD_REACTORS
330
47
102
}
330
47
100
AcDbScale
 70
     0
300
3" = 1'-0"
140
3.0
141
12.0
290
     0
  0
SCALE
  5
67
102
{ACAD_REACTORS
330
47
102
}
330
47
100
AcDbScale
 70
     0
300
6" = 1'-0"
140
6.0
141
12.0
290
     0
  0
SCALE
  5
68
102
{ACAD_REACTORS
330
47
102
}
330
47
100
AcDbScale
 70
     0
300
1'-0" = 1'-0"
140
12.0
141
12.0
290
     0
  0
ENDSEC
  0
EOF
